Verse

Played for almost whole song(except part below)

E:-------------------
B:-8---7-------------
G:-x---x---6---7--7--
D:-5---7---x---5--4--
A:-7---5---7---x--x--
E:---------5---7--7--


E:-----------------------
B:-8---3---5-------------
G:-x---x---x---6---7--7--
D:-5---4---5---x---5--4--
A:-7---2---3---7---x--x--
E:-------------5---7--7--

Dave_Matthews_Band_-_Under_the_Table_and

Tuning

Standard E-A-D-G-B-E

Studio Track

Video Reference

Let You Down