Intro/Interlude
E:----5--------------3/4-- <---finger 4
B:-2--------2--3--5-------
G:------------------------
D:------------------------
A:-0-----0-----------1/2-- <---finger 1
E:------------------------
   1  4     1  2  4

Verse
Play x2 then "Verse leading up to..." for 1 go around
E:-----------2----1-------
B:-2---------3----3----2--
G:-2---------4----2----2--
D:-2----4----4---------2--
A:-0----4----2---------0--
E:------2-----------------
   1                   1

Verse
Leading up to "In my Life..."
Played alone as the last verse
E:------2----3--------------2----2--1-------
B:------3----3----2---------3----3--3----2--
G:------4----0----2---------4----2--2----2--
D:-4----4----0----2----4----4------------2--
A:-4----2----2----0----4----2------------0--
E:-2---------3---------2--------------------
                  1                      1

Dave_Matthews_Band_-_Under_the_Table_and

Tuning

Standard E-A-D-G-B-E

Originally by: John Lennon

Studio Track

Video Reference

In My Life