Intro/Verse

E:--------------------------------------
B:--------13\--------------------------- <-Finger 4
G:--------11\--------------------------- <-Finger 2
D:--------------10---12---14---10---12--
A:--------------x----x----x----x----x---
E:-10-10--------8----10---12---8----10--
   1  1


Alternate Intro / Verse

Use this if you are having trouble reaching the notes of the original riff, if you don't have a cutaway guitar.

E:-----------8\------------------------- <--4
B:-----------7\------------------------- <--3
G:---------------5---7---9---5---7---7--
D:---------------x---x---x---x---x---x--
A:---5---5-------3---5---7---3---5---5--
E:--------------------------------------
     1   1

"I Did It..."

E:-----------------------------
B:-----------------------------
G:-----------------------------
D:------5---4---------------4-- <---3on5(1on4)
A:------x---x---4---4---7---x-- <---1on4(4on7)
E:-5-5--5---5---5---6---6---5-- <---2on5(3on6)
   2 2


"I never did a single thing..."

E:-------------------
B:-------------------
G:-------------------
D:-------------------
A:-9----6----4----2--
E:-9----6----4----2--
   1    1    1    1


Fill/Ending

I'm not positive about the fingering on this but it works

E:--------------------------------------------------
B:--------------------------------------------------
G:----------4--2------------------------------------
D:----4--2--------------5--4--------4--5--4--5------
A:-2--------------5-----------4--5------------------
E:-------------------5--------------------------5---
   1  4  1  4  1  3  2  3  1  1  3  1  3  1  3  2

Dave_Matthews_Band_-_Under_the_Table_and

Tuning

Standard E-A-D-G-B-E

Additional Tabs:

> B Tuning

Studio Track

Video Reference

I Did It - Standard Tuning