Intro/Bridge:

e-----------|--------|
b--0--1--0--|-----2--|
g--0--0--0--|--2--2--|
d--0--2--0--|--3--2--|
a--2--3--2--|--3--0--|
E--3-----3--|--1-----|


Verse/Chorus/whatever:

e------------|-------------|
b------------|---1---------|
g------------|-2-2---------|
d--3--3-2--2-|-2------(0)--|
a--3--3-2--2-|-0---0-------|
E--1--1-0--0-|-------3---2-|

e------------|-------------|
b------------|---1---------|
g------------|-2-2---------|
d--3--3-2--2-|-2------(0)--|
a--3--3-2--2-|-0---0-------|
E--1--1-0--0-|-------3---2-|

e------------|-------|--------|
b------------|-------|--------|
g------------|-2-----|--------|
d--3--3-2--2-|-2--5--|--7--3--|
a--3--3-2--2-|-0--3--|--5--1--|
E--1--1-0--0-|-------|--------|

e-------|--------|-----|
b-------|--------|-----|
g-2-----|--------|-----|
d-2--5--|--3--3--|--3--|
a-0--3--|--1--1--|--1--|
E-------|--------|-----|

Dave_Matthews_Band_-_Under_the_Table_and

Tuning

Standard E-A-D-G-B-E

Studio Track

Video Reference

Hunger for the Great Light