Verse

E:--------------------------
B:--------------------------
G:--------------------------
D:---------9-9--10-10--x-x--
A:----2\8--x-x--x--x---x-x--
E:-1-------7-7--8--8---x-x--
   1  (2)


Chorus

E:----------------------
B:----------------------
G:----------------------
D:-7-----5-----3-----2--
A:-7-----5-----3-----2--
E:-5-----3-----1-----0--
                     1


"Why do you run around..."

E:----------2--
B:-1--------3--
G:-2--------4--
D:-2--------4--
A:-0--------2--
E:-------------


End Jam

When playing with the band and they jam, at the end he hits this note every so often

E:----
B:----
G:----
D:-3--
A:-3--
E:-1--

Dave_Matthews_Band_-_Under_the_Table_and

Tuning

Standard E-A-D-G-B-E

Additional Tabs:

> Tim's Part

Studio Track

Video Reference

Halloween