E--10----7--9---5----7--9---5----7-- 
B--12----8--10--7----8--10--7----8-- 
G--12----7--9---7----7--9---7----7-- 
D--0-----0--0---0----0--0---0----0-- 
A----------------------------------- 
E----------------------------------- 

Little Fill: 
E--10-12-7--9---5-- 
B--12----8--10--7-- 
G--12----7--9---7-- 
D--0-----0--0---0-- 
A------------------ 
E------------------ 

Here's a variation: 
E-------------------------------- 
B--7----3--5--7----3--5--3----3-- 
G--7----4--6--7----4--6--2----4-- 
D--0----0--0--0----0--0--0----0-- 
A-------------------------------- 
E--------------------------------

full bar chords of the chords dave plays are added in a lot. for example.....Bm....G, A, D/F#...G, A, D/F#....G, Bm.....etc

Dave_Matthews_Band_-_Under_the_Table_and

Tuning

Standard E-A-D-G-B-E

Studio Track

Video Reference

Grey Street - Tim's Parts