This is an alternate way to play the verse when playing on a 6-string to give it a fuller sound.


Intro/Verse

E:----------------------------------
B:-7----3---5---3----3---5---3---3--
G:-7----4---6---2----4---6---2---4--
D:-x----x---x---x----x---x---x---x--
A:-x----x---x---x----x---x---x---x--
E:-7----3---5---2----3---5---2---3--


Chorus

E:-2--------(2)---3--
B:-3----2----3----0--
G:-4----2----2----0--
D:-4----2----0----0--
A:-2----4---------2--
E:-----------2----3--


Chorus Ends On

E:-2-------
B:-3----2--
G:-4----2--
D:-4----2--
A:-2-------
E:---------

Dave_Matthews_Band_-_Under_the_Table_and

Tuning

Standard E-A-D-G-B-E

Additional Tabs:

> Main Tabs

> Tim's Parts

Studio Track

Video Reference

Grey Street - Alternate