Verse

E:----------------------------------
B:----------------------------------
G:-7----4---6---2----4---6---2---4--
D:-x----x---x---x----x---x---x---x--
A:-x----x---x---x----x---x---x---x--
E:-7----3---5---2----3---5---2---3--


Chorus

2nd chord has also been played as an A-chord

E:-2---------2----3--
B:-3----2----3----0--
G:-4----2----2----0--
D:-4----2----0----0--
A:-2----4---------2--
E:----------------3--


Chorus Ends On

E:-2-------
B:-3----2--
G:-4----2--
D:-4----2--
A:-2-------
E:---------

Dave_Matthews_Band_-_Under_the_Table_and

Tuning

Standard E-A-D-G-B-E

Studio Track

Video Reference

Grey Street