e--0--------------------------------------
b-----1--0--------1--0-------1----3-------
g-----------------2--0-------2----2-------
d-----------------2--0-------2------------
a------------0----------------------------
E------------------------1----------------


e-------------0---0------------- 
b---1---1-----3-----3-1-0------- 
g---2---2-----2------------2---- 
d---2---2----0------------------ 
a-0----------------------------- 
e------1------------------------


e--------------------------------- 
b---------------------------------
g-9-7------------9----9--9--9-----
d-----10-9-7-7---7----7h10--7-----
a----------------0----8--8--5-----
E---------------------------------

Dave_Matthews_Band_-_Under_the_Table_and

Tuning

Standard E-A-D-G-B-E

Studio Track

Video Reference

Gas Into Fire