Intro/Filler

Only play high E after Chorus

E:----(2)------------
B:-----3-------------
G:-----2----------2--
D:-0--------2--4-----
A:-------------------
E:-------------------
            1  4  1


Verse

Play once then "Filler" x2

E:---------------------3--
B:-----3---------------3--
G:-----2----------2----0--
D:-0--------2--4-------0--
A:---------------------2--
E:-------------------3-3--
            1  4  1  2


Chorus

Then play "Filler" w/ High E string first time only

E:----------------------3-----0------------------
B:-----3-------3--------3-----0-----2------------
G:-----2-------2--------0-----1-----2------------
D:-0-----------4--------0-----2-----2------------
A:-----------3-3--------2-----2-----0------------
E:--------------------3-3-----0-----------3---2--
             2        2                   2   1

Dave_Matthews_Band_-_Under_the_Table_and

Tuning

Standard E-A-D-G-B-E

Originally by: Willie Nelson

Studio Track

Video Reference

Funny How Time Slips Away