Verse

E:-------------------------
B:--------------1--1/3--1--
G:-1---------1--x--x----x--
D:-2---------2--2--2/4--2--
A:-2---------2--3--3/5--3--
E:-------------------------


"I tripped and then I fell..."

E:---------------------------
B:------2----------1--1/3--1--
G:-1----2-----1----x--x----x--
D:-2----2-----2----2--2/4--2--
A:-2----------2----3--3/5--3--
E:----------------------------
        1

Dave_Matthews_Band_-_Under_the_Table_and

Tuning

Standard E-A-D-G-B-E

Originally by: Daniel Lanois

Studio Track

Video Reference

For the Beauty of Wynona