Intro/Verse

E:-----------------------------------
B:-1--0--1--0--0-1-0------1----------
G:-2--0--2--0--0-2-0------2----------
D:-2--0--2--0--0-2-0--5---2---0h1/2--
A:-----------------------------------
E:-----------------------------------
                      4       (_1_)


Chorus

E:-0----0---------0--
B:-1----3----5----3--
G:-2----4----5----4--
D:-2----4----5----4--
A:-------------------
E:-------------------
             1

Dave_Matthews_Band_-_Under_the_Table_and

Tuning

Standard E-A-D-G-B-E

Originally by: Bob Marley

Studio Track

Video Reference

Exodus