Try to mix this and the Strummed version


Intro/Verse

E:-------------------------------
B:-------------------------------
G:--------9------------9-----9--- <---2
D:-10-----10----10-----------10-- <---3
A:-----8------------------------- x3 then End of Verse
E:------------------8-----8------
   3   1        3   1  2  1


End of Verse

E:-----------------------------------------
B:-----------------------------------------
G:-------------------------------------9--- <---2
D:-------10-----10--------10----10-----10-- <---3
A:-8----------------8----------------------
E:----6------6---------6------------8------
   2  1  4   1  4   2  1  4     3   1 
or

E:--------------------------------------
B:--------------------------------------
G:----------------------------9-----9--- <---2on9
D:-------10-----10-----10-----------10-- <---4on 1st 10(3on last 10)
A:-8------------8----------------------- <---2on8
E:----6------6-------------8-----8------
   2  1  4   1         3   1  2  1


Chorus

E:----0-----------------------------------------------------
B:----0h1--------1-----1----------1-----1----------1-----1-- <---1on 1st 1(2 on rest 1)
G:----0----------------0----------------0----------------0--
D:----0h2--2-----------2----2-----------2----2-----------2-- <---2on 1st 2(3 on rest 2)
A:-0----------0-----0---------------------------------------
E:-----------------------------1-----1----------3-----3-----
           2     1          3  1  2  1       3  4  1  4


End of Chorus

E:----0------------------------------------------------------------------------3--
B:----0h1--------1-----1----------1-----1----------1-----1----------1-----1----0-- <---1on 1st 1(2 on rest 1)
G:----0----------------0----------------0----------------0----------------0----0--
D:----0h2--2-----------2----2-----------2----2-----------2----2-----------2----0-- <---2on 1st 2(3 on rest 2)
A:-0----------0-----0----------------------------------------------------------2--
E:-----------------------------1-----1----------1-----1----------1-----1-------3--
           2     1          3  1  2  1       3  1  2  1       3  1  2  1


Breakdown

Don't play last 2 chords/notes when ending

E:-----------------------------------
B:-----------------------------------
G:-----5--------6------3-----5----5-- <---2on5&3(4on6)
D:-----3--------3------1-----5----5-- <---1on3&1
A:-------------------------3---------
E:-/6------4-4------4-----------3----
   (3)     2 2      3      1    1

Dave_Matthews_Band_-_Under_the_Table_and

Tuning

Standard E-A-D-G-B-E

Additional Tabs:

> Strummed Version

Studio Track

Video Reference

Everyday