This is played on a electric guitar, and played clean

Intro and Verses:

--------|-------|-----|-------|-------|---------

--------|-------|-----|-------|-------|---------
--------|-------|-----|-------|-------|---------
-----4--|-----4-|-----|-----7-|-----5-|---------
---1----|---2---|-----|---4---|---2---|---------
-2------|-0-----|-3/5-|-5-----|-3-----|---------


Chorus ("I don't want to wake up"):
------|------|------|------|---------
--2---|--3---|--3---|------|---------
--2---|--2---|--4---|--2---|---------
--2---|--0---|--4---|--0---|---------
--0---|------|--2---|--0---|---------
------|------|------|--2---|---------


Rain on my head (From the song "Little Thing"):
------|-----|-----|-----|-----|----------
------|-----|-----|-----|-----|----------
------|-----|-----|--7--|--7--|----------
--9---|--9--|--7--|--x--|--x--|----------
-10---|-10--|--9--|--5--|--5--|----------
--0---|--8--|-10--|--7--|--6--|----------

Dave_Matthews_Band_-_Under_the_Table_and

Tuning

Standard E-A-D-G-B-E

Studio Track

Video Reference

Dreams of Our Fathers