Intro/Verse 
e|-----|-------------------------------
B|-----|-------------------------------
G|-----|-------------------------------
D|-----|-------------------------------
A|-5-5-|-5--------------------4-4-5-5--
E|-----|---3-3--3-5-5--5-5-5-----------
    *
*Only played to start riff


Chorus
e|-----------------------------
B|----7-8-7----7-8-7----7-8-7--
G|-----------------------------
D|----7-7-7----7-7-7----7-7-7--
A|--5--------------------------
E|-----------7--------5--------


Bridge
e|---------------------------------------
B|---------------------------------------
G|------5--------5------2----------------
D|----3---3----2---2------3-5-2-3-5-2----
A|--1--------3--------5---------------3--
E|---------------------------------------

Dave_Matthews_Band_-_Under_the_Table_and

Tuning

Standard E-A-D-G-B-E

Studio Track

Video Reference

Do You Remember