Old Intro

E:-----------------------------------------
B:-----------------------------------------
G:------4p2--2--2--0-----------------------
D:------0----0--0--0--------5-----5--5--5--
A:----------------------3------3--------3--
E:--3--------------------------------------


E:----------------------------------
B:----------------------------------
G:-----2--2--2--2-------------------
D:-----4--4--4--0------5---5--5--5--
A:-------------------3---3-------3--
E:--3-------------------------------

Dave_Matthews_Band_-_Under_the_Table_and

Tuning

Standard E-A-D-G-B-E

Additional Tabs:

> Main Tabs

Studio Track

Video Reference

Digging a Ditch - Old Style Intro