Intro/Tease/Partial (2014)

E:---------------------------

B:---------------------------

G:--9----7---6---------------

D:----------------5-7--5-7---

A:--7----5---4---------------

E:-(0)--(0)-(0)---3-5--3-5---


Whole Song

E:------------------------
B:------------------------
G:------------------------
D:------------------------
A:-7-7--6-6--5-5--4-4--x-- <---4on7(2on6, 1on 5&4)
E:-7-7--7-7--7-7--7-7--x-- <---3

Dave_Matthews_Band_-_Under_the_Table_and

Tuning

Standard E-A-D-G-B-E

Studio Track

Video Reference

Deed Is Done