Intro

E:----------------
B:-2--------------
G:-2-----------1--
D:-2-----------2--
A:-------------2--
E:-----4---2------
   1   3   1


"How can I turn away..."/Chorus

The Chorus starts off with an E chord strumming(like the last chord shown above)

Play this twice then the Intro for a go around

E:----------------------------
B:-2--4--5--5------5---4------ <---1on first 5
G:-2--4--6--4------4---x---1-- <---2on6
D:-2--4--7--x------x---4---2-- <---3on7
A:----------2------2---2---2--
E:----------------------------
   1  1


Verse

E:----------------------
B:----------------------
G:-6-----7-----4-----6--
D:-4-----4-----2-----6--
A:-x-----x-----x-----4--
E:-7-----5-----5--------


"Into a Cold, Dark Place"

Hit note when at each word(Cold, Dark, Place) then go straight into normal verse after 1st chord

E:----------------
B:----------------
G:-6-----6-----6--
D:-4-----4-----4--
A:-x-----x-----x--
E:-7-----7-----7--

Dave_Matthews_Band_-_Under_the_Table_and

Tuning

Standard E-A-D-G-B-E

Studio Track

Video Reference

Cry Freedom