Slide solo (use metal slide) 

--------------------------------------------------------------------- 
--------------------------------------------------------------------- 
-12-12-12-12-12-11-10-9-8-8-12-12-12-12-13-14-15-15-15-12-12-12-12-12 
--------------------------------------------------------------------- 
--------------------------------------------------------------------- 
--------------------------------------------------------------------- 

--------------------------------------------------------------------- 
-------------------------------12-12-12-12-12-12-12-12-13-14-15-15-15 
-7-7-7-7-7-5-5-5-5-4-4-4-3-3-3-12-12-12-12-12-12-12-12-13-14-15-15-15 
--------------------------------------------------------------------- 
--------------------------------------------------------------------- 
--------------------------------------------------------------------- 

--------------------------------------------------------------------- 
-12-12-12-12-12-12-12-17-17-17-17-15-15-15-15-15-14-14-14-14-13-13-13 
-12-12-12-12-12-12-12-17-17-17-17-15-15-15-15-15-14-14-14-14-13-13-13 
--------------------------------------------------------------------- 
--------------------------------------------------------------------- 
--------------------------------------------------------------------- 

------------------------------ 
------------------------------ 
-12-12-12-12-12-13-13-13-14-14 
------------------------------ 
------------------------------ 
------------------------------ 

Next slide part 

-------------------------------- 
-------------------------------- 
5-5-5-7-7-7-7-7-7-7-7-9-9-9-9-9- 
-------------------------------- 
-------------------------------- 
-------------------------------- 

little bass run near end 

-------------- 
-----------3-2 
-2-5--- 
------- 
solo at the end is played with his thumb all notes are bent 

----------------------------------------------------------------------- 
----------------------------------------------------------------------- 
-11-11-11-11-9-9-9-9--------------------------------------------------- 
---------------------7-7-7-7-4-4-4-4--2-2-4-4-4-4-2-2-5-5-5-5-5-7-7-7-7 
----------------------------------------------------------------------- 
----------------------------------------------------------------------- 

---------------------------------------------------------------------- 
----------------10-10-10-10-12-12-12-12-12-12-12-12-12-12-14-14-14-14- 
---------------------------------------------------------------------- 
-4-4-4-4-2-2-2-2------------------------------------------------------ 
---------------------------------------------------------------------- 
---------------------------------------------------------------------- 

little run hardly audible then.... 

------------- 
-3-3-3-3-0-0- twice 
-4-4-4-4-4-4- 
-4-4-4-4-4-4- 
-2-2-2-2-2-2- 
------------- 

-------xxxxxxx 
-------xxxxxxx 
-7-9-9-xxxxxxx twice 
-xxxxxxxxxxxxx 
-5-7-7-xxxxxxx 
-------xxxxxxx 

------------------------ 
-------10-10-10-12-12-12 
------------------------ 
------------------------ then finally just the low part 
-0-2-2------------------ 
------------------------

Dave_Matthews_Band_-_Under_the_Table_and

Tuning

Standard E-A-D-G-B-E

Studio Track

Video Reference

Crush - Tim's Storytellers Solo