Intro/Verse

E:-------------------------------------------------
B:---5------5----5------5----5------5----5------5--
G:---4------4----4------4----4------4----4------4--
D:---2------2----x------x----x------2----x------x--
A:-4-4----0-0--2-2------2----2----0-0--2-2------2--
E:--------------------0-0--4-4----------------0-0--
   2           1           2           1


"Crash, Into Me..."

E:--------------------0--------
B:---5----------------0-----3--
G:---4----------------1-----2--
D:---2----------------2-----x--
A:-4-4----------------2-----x--
E:---------4--5--7\---0---2-2--
   2       1  2 (4)       2


Verse Substitute

E:-------------------------
B:-------------------------
G:---4------4----4------4--
D:---2------2----x------x--
A:---x----0-0--2-2------2--
E:-4-4----------------0-0--
   3           1


"In a Boy's Dream..."

E:-----------------------------------------------------
B:---5------5------5------5------5------5----5------5--
G:---4------4------4------4------4------4----4------4--
D:---2------2------2------2------2------2----x------x--
A:-4-4----4-4----4-4----4-4----4-4----0-0--2-2------2--
E:------------------------------------------------0-0--
   2      2     2       2                  1

Dave_Matthews_Band_-_Under_the_Table_and

Tuning

Standard E-A-D-G-B-E

Additional Tabs:

> Tim Fills

Studio Track

Video Reference

Crash Into Me