Verse: 
”CigaretteLit…” 
B|---------------------------------- 
F#|--------------------------------- 
D|--11------11------11------7----7-- 
A|--9-------9-------x-------x----x-- 
E|--10------10------9-------x----x-- 
B|--0-------8-------10------7----6--


Pre-Chorus:

”Excuse me please…” 
B|--0-------2---3------ 
F#|-0---2---3---3------ 
D|--0---2---2---0------ 
A|--2---2---0---0------ 
E|--2---0-------2------ 
B|--0-----------3-(2)--


Chorus:

”The rain falls down…” 
B|--2---3-- 
F#|-3---3-- 
D|--2---0-- 
A|--0---0-- 
E|------2-- 
B|------3--


Post-Chorus:

”And all I beg…” 
B|------0------ 
F#|-2---0---2-- 
D|--2---0---2-- 
A|--2---2---2-- 
E|--0---2---0-- 
B|------0------


Outro:

B|------------------------------ 
F#|----------------------------- 
D|--11---9---/12------7------7-- 
A|--0----x----x----------------- 
E|--9----7----10------5------5-- 
B|--10---9---/12---7--7---6--6--

Dave_Matthews_Band_-_Under_the_Table_and

Tuning: Raised-B

B-E-A-D-F#-B

Additional Tabs:

> Main Cigarette Lit Tabs

Studio Track

Video Reference

Cigarette Lit - Raised B Tuning