Chorus

Basics for fills in the chorus

"love, love, love..." G->A->Bm progression


"When Jesus Christ..." A->Bm->G->A progression

This should help with the fills.


"Love, love, love..."

E:---------------------------
B:------3------2----3-2-3-2--
G:------4------2----4-2-4-2--
D:-----------2-----4-----2---
A:----5----0------2----------
E:--3------------------------


"When Jesus Christ..."
E:------------------------------
B:------5------7------3------5--
G:------6------7------4------6--
D:------------------------------
A:----7------9------5------7----
E:--5------7------3------5------


Intro/Verse

Any of these will add to the verses

E:---------------------
B:---------------------
G:-7---7---------------
D:-4/5-4-0--7--7----5--
A:---------4/5-4-0h2---
E:---------------------

or

E:--------------------------
B:--------------------------
G:-7---7-----------------7--
D:-4/5-4-0--7----7--7/9-----
A:----------4/5--4----------
E:--------------------------

or

E:--10--10-------------
B:--7/8--7--5-5-7-5-3--
G:----------6-6-7-6-4--
D:----------7-7-7-7-5--
A:---------------------
E:---------------------

Dave_Matthews_Band_-_Under_the_Table_and

Tuning

Standard E-A-D-G-B-E

Additional Tabs:

> Main Tabs

Studio Track

Video Reference

Christmas Song - Tim's Parts