Verse

E:----------------------------------------------------------
B:----------------------------------------------------------
G:-0----0-------0----0-------0----0-------------------------
D:-0h2--0---5---0h2--0---4---0h2--0---2---4---4---2---5--5--
A:-3----3---5---3----3---5---3----3---3---5---5---3---5--5--
E:----------3------------5------------5---2---5---5---3--3--
   (2)  3       (2)  3       (2)  3


"I know she's gonna leave..."

E:--------------------------------------
B:--------------------------------------
G:--------------------------------------
D:-4----2----5----4-----4---2----4---5--
A:-5----3----5----5-----5---3----5---5--
E:-5----5----3----2-----5---5----2---3--


Played as "I know..." part to lead into Breakdown

E:-----------------------------
B:-----------------------------
G:-0--------------------0------
D:-0----7----5----4-----0---7--
A:-3---------5----5-----3------
E:------5----3----2---------5--


Breakdown

E:----
B:----
G:----
D:-5--
A:-5--
E:-6--

Dave_Matthews_Band_-_Under_the_Table_and

Tuning

Standard E-A-D-G-B-E

Additional Tabs:

> Raised-B Tuning

Studio Track

Video Reference

Busted Stuff - Standard Tuning