Intro/Jam/Fill
E:-0--------------0--
B:-0--------------1--
G:-0--------------0--
D:-2------2/4\2---2--
A:-2----2---------3--
E:-0--------------3--
        2  (3)


Verse
E:-0-----------0--
B:-0-----------1--
G:-0-----------0--
D:-2-----------2--
A:-2-----------3--
E:-0-----------3--

Dave_Matthews_Band_-_Under_the_Table_and

Tuning

Standard E-A-D-G-B-E

Studio Track

Video Reference

Blue Water