Intro/Chorus/Outro
                          end on the B then G before going into verse
--------3--------------*----------3---------------------|
--4-----3-----4-----2--*----4-----3---------------------|
--4-----0-----4-----2--*----4-----0---------------------|
--4-----------4-----2--*----4---------------------------|
--2-----2-----2-----0--*----2-----2---------------------|
--------3--------------*----------3---------------------|


Verse

2nd half of verse
-------------------------------------------------*-------------------------|
-------------------------------------------------*-------------------------|
-----------------9-9----8-8----7-7---------------*---------------7-7---9-9-|
--9-9----8--8----x-x----x-x----x-x----5-5----7-7-*-9-9----8-8----x-x---x-x-|
--x-x----x--x----7-7----6-6----5-5----x-x----x-x-*-x-x----x-x----5-5---7-7-|
--7-7----6--6-------------------------3-3----5-5-*-7-7----6-6-------------|

Dave_Matthews_Band_-_Under_the_Table_and

Tuning

Standard E-A-D-G-B-E

Studio Track

Video Reference

Blackjack