You will lose some of the sound playing it in Standard Tuning, but only in the verse

Intro/Fill

E:----------
B:----------
G:----------
D:----------
A:-3h5---5--
E:-x-----x--
   1_4   4


Verse

E:-----------------
B:-----------------
G:-----------------
D:-----------------
A:-5--5---3h5---5-- <---4
E:-2--3---x-----x-- <---1
          1_4   4


Chorus

E:----------
B:----------
G:-4--------
D:-4-----5--
A:-2-----5--
E:-------3--


Outro Jam

E:-2--------------------2--
B:-3------3------3------3--
G:-2------4------4------2--
D:-0------5------5------0--
A:--------5------5---------
E:-------------------------

Dave_Matthews_Band_-_Under_the_Table_and

Tuning

Standard E-A-D-G-B-E

Additional Tabs:

> Drop-D Tuning

> 2nd Guitar

Studio Track

Video Reference

Bartender - Standard Tuning