This shows fuller chords so you can get the best sound out of your guitar.


This is played a few times in the beggining.

E:--------
B:--------
G:-----7--
D:-----0--
A:-3--/5--
D:-0---0--


Verse

E:----------------
B:----------------
G:-7--7--------7--
D:-0--5--------0--
A:-x--5----3--/5--
D:-4--5----0---0--


Chorus

The end two chords are played a few times.

Listen to the song to find out how many times to play them.

E:----------------------
B:----------------------
G:-4------7----------7--
D:-4------5----------0--
A:-2------5------3--/5--
D:--------5------0---0--


Outro Jam

Play a few times getting quieter each time.

E:-(2)------------------(2)--
B:--3------3------3------3---
G:--2------4------4------2---
D:--0------5------5------0---
A:---------5------5----------
D:---------------------------

Dave_Matthews_Band_-_Under_the_Table_and

Tuning: Drop-D

D-A-D-G-B-E

Studio Track

Video Reference

Bartender - 2nd Guitar