Intro

E:----------
B:----------
G:----------
D:----------
A:-3h5---5--
D:-0-----0--
   1_4   4


Verse

E:-----------------
B:-----------------
G:-----------------
D:-----------------
A:-5--5---3h5---5-- <---finger 4
D:-4--5---0-----0-- <---finger 2 on 4(finger 3 on 5)
          1_4   4


Chorus

E:----------
B:----------
G:-4--------
D:-4-----5--
A:-2-----5--
D:-------5--
         3


Outro Jam

E:-(2)------------------(2)--
B:--3------3------3------3---
G:--2------4------4------2---
D:--0------5------5------0---
A:---------5------5----------
D:---------------------------

Dave_Matthews_Band_-_Under_the_Table_and

Tuning: Drop-D

D-A-D-G-B-E

Studio Track

Video Reference

Bartender