intro
violin & sax intro
--------------------------------
-10------10----10----10---10-10-
-10h11---10h11-10h11-12---12-12-
--------------------------------
--------------------------------
--------------------------------



then comes the base run
dave's part
E-------------------------
B-------------------------
G-------------------------
D-12-10-9-----------------
A---------12-10-9---------
E-----------------12-10---

stefan's part
E-------------------------
B-------------------------
G-------------------------
D-5-3-2-------------------
A-------5-3-2-------------
E-------------5-3---------

then dave goes
--------------
--------------
-6/777777777--
-6/777777777--
-4/555555555--
--------------

base walk before verse
E---------------------------------|
B---------------------------------|
G---------------------------------|
D---------------------------------|
A---------------------------------|
E-3--2-3-5--3-5-7--5-7-9--7-9-10\-|

Dave_Matthews_Band_-_Under_the_Table_and

Tuning

Standard E-A-D-G-B-E

Studio Track

Video Reference

Ants Marching Intro