Verse

E:-3--------3--------1--------2----3--
B:-0----1---0----1---0----1---3----0--
G:-0----x---0----x---0----x---2----0--
D:-0----2---0----2---0----2---0----0--
A:-2----3---2----3---2----3--------2--
E:-3--------3--------3-------------3--


Chorus

E:-3----1--------1--
B:-0----1---1----0--
G:-0----2---x----0--
D:-0----3---2----0--
A:-2----3---3----2--
E:-3----1--------3--

Dave_Matthews_Band_-_Under_the_Table_and

Tuning

Standard E-A-D-G-B-E

Originally by: John Prine

Studio Track

Video Reference

Angel From Montgomery