Verse/Intro

First chord is not played to start the song

E:-----------------------------------
B:-----------------------------------
G:--------------------------------1--
D:-9------------------------------2--
A:-9----9h11--9-------------------2--
E:-7--------------9h11--9---7h9---0--
        1_3   1   1_3   1   1_3


Alternate Verse/Slower Jam

When Jamming, you can play a lot of variation to...well....anything

E;-------------
B:-------------
G:----------1--
D:-9--------2--
A:-9--------2--
E:-7--------0--


"When your not here"

E:-----------------------------------
B:------------------------9----7--5-- <---3on5
G:----------0h1---1------------------
D:-4-----1--------2----/9----7----5-- <---2on5
A:-x--------------2------------------
E:-2--------------0------------------
          1 (2)       (2) 3  2 3


"Why do I cry..."

E:--------------------------------------------
B:-----------------------------------------8--
G:-6----8--10--------6----8--10-------1----8--
D:-6----6--8----4----6----6--8----4---2----x--
A:-4----6--8----4----4----6--8----4---2----6--
E:--------------2-----------------2---0-------


"You'll be my Angel..."

E:---------------
B:---------------
G:-2----1-2---1--
D:-4----2-4---2--
A:-4----2-2---2--
E:-5-------------


Faster Jam


Again, use a lot variation in here

E:-------------------
B:-------------------
G:-------------------
D:-15--------11---9--
A:-x---------x----x--
E:-13--------9----7--

Dave_Matthews_Band_-_Under_the_Table_and

Tuning

Standard E-A-D-G-B-E

Additional Tabs:

> B Tuning

Studio Track

Video Reference

Angel - Standard Tuning