E-------------   
B-------------
G-------------
D-------------
A--2--5-------
E--------2--3-

OR

E---------------------
B---------------------
G---------------------
D-----------0---------
A--(0)--2-------------
E---------------2---3-

Dave_Matthews_Band_-_Under_the_Table_and

Tuning

Standard E-A-D-G-B-E

Common Segue:

> American Baby

Studio Track

Video Reference

American Baby Intro