Alternate Intro

Keep your first finger barred on the three high strings at all times, and place your second and third fingers where you need to.


E:---5---3---1---1---3--- <-- 1 (barred)
B:---5---3---1---1---3--- <-- 1 (barred)
G:---5---4---2---2---4--- <-- 1 on 5 (barred), 2 on 4 & 2
D:---7---5---3---3---5--- <-- 3
A:-----------------------
E:-----------------------


Alternate Jam

It takes a bit of practice to do the chord change from the F bar chord to the last two chords. Play them like you would an open C, with your fourth finger on the high E string.


E:--0---3---1---8---10--- <-- 4 on 8 & 10
B:--1---0---1---6---8---- <-- 1 on 6 & 8
G:--2---0---2---x---x----
D:--2---0---3---7---9---- <-- 2 on 7 & 9
A:--0---2---3---8---10--- <-- 3 on 8 & 10
E:------3---1------------

Dave_Matthews_Band_-_Under_the_Table_and

Tuning

Standard E-A-D-G-B-E

Additional Tabs:

> Main Watchtower Tabs


Originally by: 

Bob Dylan

Studio Track

Video Reference

All Along the Watchtower - Alternate Intro and Jam