Tuning: B-Tuning

B-E-A-D-F#-B


Difficulty: ***

Advanced


Additional Tabs:


Helpful Videos:

> DMB '02

>b. DMB '02

Intro/Verse

Only play the first note when starting the whole riff over

B:--------------------------------------------------------------
F#:-------------------------------------------------------------
D:----9------------9-------------9------------9-------------9---<-4on 1st,3rd,5th(2on 2nd,4th)
A:----7------------7------7------x------------7------7------7--- <-1
E:--0-0------------x------x------x------------x------x------0---
B:----------9-9/10-10---9-9/---7-7----9-9/10--10---9-9/---7-----
            3 (3)       2 (2)  1      3 (3)        2 (2)  1


Verse -> Pre-Chorus

B:--3------3------------
F#:-3------3------------
D:--0------0------------
A:--0------0------------
E:--2------x------------
B:--3------2------3--2-- <---1on2
                  2  1


Pre-Chorus

B:--0------------2----------3--------------------------
F#:-0------------3----------3--------------------------
D:--0------------2----------0---------------6\4--------
A:--2-------(0)--0----------0---------------x----------
E:--2--------0--------3--2--2---------------4\2--------
B:--0----3------------------3----2--3--3/5--------0h2--
         4            2  1       1  2  (2)        (1)


Pre-Chorus -> Chorus

Same as Pre-Chorus just cut off at the 3

B:--0------------2----------3----------
F#:-0------------3----------3----------
D:--0------------2----------0----------
A:--2-------(0)--0----------0----------
E:--2--------0--------3--2--2----------
B:--0----3------------------3----2--3--
         4            2  1       1  2


Chorus

Always strum the D-chord a little longer before going to the transitions

B:--0-----0-----3-----2--
F#:-0-----1-----0-----3--
D:--2-----0-----0-----2--
A:--2-----2-----0-----0--
E:--0-----3-----2--------
B:--------------3--------


Chorus -> Verse

B:----------
F#:---------
D:----------
A:----------
E:--3----2--
B:----------
    2    1


Chorus/Jam -> Pre-Chorus

B:--0------------
F#:-0------------
D:--0------------
A:--2------------
E:--2------------
B:--0----3----2--
         2    1


Chorus -> "All Fall Down"

B:--10--
F#:-8---
D:------
A:------
E:------
B:------


"All Fall Down"

B:--10-----10-----10-----0-----0----
F#:-8------8------0------0h1---0h1--
D:--x------0------x------0-----0----
A:--9------x------x------0h2---0h2--
E:--10-----9------8------3-----3---- <---3on10(2on9, 1on8)
B:----------------------------------
                         3     3   


"All Fall Down" -> Jam/"Out of the Darkness..."

Same as "All Fall Down just cur off before C-chord Hammers

B:--10-----10-----10--
F#:-8------8------0---
D:--x------0------x---
A:--9------x------x---
E:--10-----9------8--- <---3on10(2on9, 1on8)
B:--------------------


Jam/"Out of the Darkness..."

Hammer on is hard w/ the rhythm, you can always just play w/o hammering

B:--0-----0-----0-----0-----0-----0-----0-----0----
F#:-0h1---0h1---0h1---0h1---0h1---0h1---0h1---0h1-- <----1on1
D:--0-----0-----0-----0-----0-----0-----0-----0----
A:--0h2---0h2---0h2---0h2---0h2---0h2---0h2---0h2-- <----2on2
E:--3-----3-----3-----3-----0-----0-----0-----0----
B:-------------------------------------------------
    3     3     3     3


B:--0-----0-----0-----0-----0-----0-----0-----0----
F#:-0h1---0h1---0h1---0h1---0h1---0h1---0h1---0h1-- <----2on first-4-1's(1onlast-4-1's)
D:--0-----0-----0-----0-----0-----0-----0-----0----
A:--0h2---0h2---0h2---0h2---0h2---0h2---0h2---0h2-- <----3on first-4-2's(2onlast-4-2's)
E:--x-----x-----x-----x-----x-----x-----x-----x----
B:--1-----1-----1-----1-----3-----3-----3-----3----
    1     1     1     1     3     3     3     3

Studio Version:

Most Helpful Video:

Album: Busted Stuff

 

You Never Know