Most Helpful Video:

Originally by: The Rolling Stones

 

Wild Horses













Tuning: Standard

E-A-D-G-B-E


Difficulty: **

Intermediate


Additional Tabs:



Helpful Videos:

Intro (strumming):
E--3------0------3------0---------
B--0h1-0--1h3-1--0h1-0--1h3-1-----
G--0------0------0------0---------
D--0------2------0------2---------
A--2------3------2------3---------
E--3-------------3----------------


E-2---3------2---3---0---0--2--3--2h3-2----2-- 
B-3---0h1-0--3---0---1---1--3--3--3--------3--
G-4---0------4---0---2---0--2--0--2--------4-- etc...
D-4---0------4---0---2---2--0--0--0--------4--
A-2---2------2---2---0-2-3-----2--------3--2--
E-----3----------3-------------3--------------


"Wild horses..."
E--0---0---2---3---1---0-----0--- 
B--1---1---3---3---1---1--0--1---
G--2---0---2---0---2---0--0--2--- etc...
D--2---2---0---0---3---2--0--2---
A--0-2-3-------2---3---3--2--0---
E--------------3---1-------------