Studio Version:

Most Helpful Video:

Album: Big Whiskey

 

Why I Am













Tuning: Standard

E-A-D-G-B-E


Difficulty: ***

Advanced


Additional Tabs:



Helpful Videos:

Intro
e|--------------------------------------------------------|
B|--------1--------1--------1--------1--------1--------1--|
G|-----2--------0--------0--------0--------0--------0-----|
D|--3--------2--------0-----------------------------------|
A|-----------------------------3--------2--------0--------|
E|--------------------------------------------------------|


Verse
e|-----------------------------------------|
B|-----------------------------------------|
G|-----------x-------------x-------x----x--|
D|-----x-----5-------------5-------5----5--|
A|--x--x--x--x--x----x--x--x--x----3----2--|
E|--3--x--3-----3----3--3-----3------------|


After the "Groogrux King" line
e|---------------------------------------|
B|---------------------------------------|
G|-----9------7--------------------------|
D|--x--x---x--x---5--- back into verse --|
A|--7--7---5--5---x----------------------|
E|----------------3----------------------|


First chorus is the intro x1


Chorus 2 and 3
e|---------------------------------------------|
B|--------1--------1--------1--------1-----x---|
G|-----2--------0--------0--------0--------x---| x3
D|--3--------2--------0--------------------x---|
A|-----------------------------3--------2--x---|
E|---------------------------------------------|


e|--------------------------------------|
B|--------1--------1--------1--------0--|
G|-----0--------0--------0--------0-----|
D|--------------------------------------|
A|--0--------3--------2-----------------|
E|-----------------------------3--------|


Bridge
e|------------------------------------------------------------|
B|------------------------------------------------------------|
G|---------------------------0--------------------------------|
D|--3--7--10--5----3--7--10--2----3--7--10--5----3--7--10--5--|
A|--3--7--10--5----3--7--10--2----3--7--10--5----3--7--10--5--|
E|--1--5--8---3----1--5--8---0----1--5--8---3----1--5--8---3--|


Final Riff
e|-------------------------------------------|
B|--------1--------1--------1--------1-------|
G|-----0--------0--------0--------2----------|
D|----------------------------------------5--|
A|--0--------3--------2-------------------x--|
E|-----------------------------1----------3--|