End of "I am no Superman"

E:----------------------------------------------------------------------------
B:-3-----3----3-----3----3-----3--------3-----3---------3-----3---------3----- <---3
G:-------2----------2----------0--0-----------0---0-----------0---0----------- <---1
D:----0-----------------------------------------------------------------------
A:---------------3----------1--------1-----1---------1-----1---------1-----1--
E:----------------------------------------------------------------------------
    3         3  2       3  1  3     1  3  1  3       1  3  1  3      1  3  1 


E:-----------------------------------------------------------------------------------------
B:------3-----3---------3-----3----3-----3--------3-----3---------3-----3---------3-----3-- <---3
G:-0h2--------2--2------------2----------4--4-----------4---4-----------4---4-----------4-- <---1on2(4on4)
D:---------0---------0-----0-------------2-----2-----2--2------2-----2--2------2-----2--2-- <---1
A:------------------------------------3--3------------------------------------------------- <---2
E:-----------------------------------------------------------------------------------------
   (1)  3        1      3          3  2     4  1  3  1      4  1  3  1      4  1  3  1

Studio Version:

Most Helpful Video:

Album: Everyday

 

Where Are You Going - Fingerpicked Version













Tuning: Standard

E-A-D-G-B-E


Difficulty: ***

Advanced


Additional Tabs:


Helpful Videos:

> DMB '13


Mix with strummed version for best sound

Intro

E:-------------------------------------------------------
B:------3-----3--------3------------3-----3--------3----- <---3
G:-0h2--------2--2-------------0h2--------2--2----------- <---1
D:---------0--------0-----0------------------------------
A:-------------------------------------------------------
E:-------------------------------------3--------3-----3--
   (1)  3        1     3       (1)  3  2     1  2  3  2


E:-------------------------------------------------------
B:------3-----3--------3------------3-----3--------3----- <---3
G:-0h2--------x----------------0h2--------x--------------
D:------------4--4------------------------2--2----------- <---4on4(1on2)
A:---------2--------2-----2------------0--------0-----0--
E:-------------------------------------------------------
   (1)  3  1     4  1  3  1    (1)  3        1     3  


Verse

E:--------------------------------------------
B:----3--------3-----3------3--------3-----3-- <---3
G:----2--2-----------2------2--2-----------2-- <---1
D:-0--------0-----0---------------------------
A:--------------------------------------------
E:-----------------------3--------3-----3-----
         1     3         2     1  2  3  2


E:---------------------------------------------
B:----3--------3-----3-------3--------3-----3-- <---3
G:----x--------------x-------x--------------x--
D:----4--4-----------4-------2--2-----------2-- <---4on4(1on2)
A:-2--------2-----2-------0---------0----0-----
E:---------------------------------------------
   1     4  1  3  1             1     3   


"I am no Superman..."

E:-------------------------------------------
B:-3-----3----3-----3----3-----3----3-----3-- <---3
G:-------2----------2----------0----------0-- <---1
D:----0-------------------------------------- x3
A:---------------3----------2----------1-----
E:-------------------------------------------
   3          3  2       3  1  3    3  1  3





















Lead into Breakdown

E:-----------------------
B:-3------3----3------3-- <---3
G:--------2-----------2-- <---1
D:----0------------------
A:----------------3------
E:-----------------------
   3           3  2


Breakdown

When ending Breakdown, don't play slide or Zero AT END

E:------------------------------------------------
B:----8---------3-----3---3-----3-----3-----3-----
G:----x---------------x---------------------------
D:----5---4-----------4---------------------------
A:-7---------5-----5--5------2-----3-----------0--
E:---------------------------------------3--------
   3      2  3  1  3     4   1  4  2  4  3  4


E;--------------------------------------------
B:----8---------3-----3---3-----3--------(0)--
G:----x---------------x-----------------------
D:----5---4-----------4-----------------------
A:-7---------5-----5--5------2-----3/-----0---
E:--------------------------------------------
   3      2  3  1  3     4   1  4  2