Studio Version:

Most Helpful Video:

Album: Everyday

 

When the World Ends













Tuning: Standard

E-A-D-G-B-E


Difficulty: ***

Advanced


Additional Tabs:



Helpful Videos:

> Dave and Tim '10

> DMB '12

Verse

E:-----------------------------------
B:-----------------------------------
G:---7-----6-------12------11----9--
D:---x-----x-------x-------7-----5---
A:---5-----4-------10------9-----7---
E:-7-7---5-5---/12-12---10-10----8---
   3     2     (3)      3        3


Lead into Chorus

E:------------------
B:------------------
G:---7-----6--------
D:---x-----x--------
A:---5-----4--------
E:-7-7---5-5---12\--
               (2)


Chorus

Ends on Lead into Verse

E:---------------------------------
B:---------------------------------
G:-2----5----5----5----2----5---5--
D:-3----3----3----3----3----3---3--
A:-3----4----x----x----3----4---x--
E:-1---------4----6----1--------6--


Break Down

Ends on Lead into Verse

E:-2-------------         E:-2----------0--2--
B:-3----------2--         B:-3----------0--3--
G:-2----------2--         G:-2----------0--2--
D:-0----4--5--2-- x4 then D:-0----4--5--2--0--
A:------x--x--0--         A:------x--x--2-----
E:------2--3-----         E:------2--3--0-----
              1


End Note/Lead Into Verse

E:----
B:----
G:-5--
D:-x--
A:-3--
E:----