Studio Version:

Most Helpful Video:

Album: UTTAD

 

What Would You Say













Tuning: Standard

E-A-D-G-B-E


Difficulty: ****

Pro


Additional Tabs:


Helpful Videos:

> DMB '12

Intro/Verse

E:--------------------------------------------------
B:-----------------3/5-----5----------2^3^2--0------
G:-----------4\2-------------------------------2----
D:-------5-------------------------2-------------2--
A:--------------------------------------------------
E:-3/5-------------------5---5--3-------------------
   (2)   3   (1)   (4)   2 4 2  2  1  (1&2)    1 1


Alternate Intro/Verse

Alternate is without the Bend

E:-------------------------------------
B:-----------------3/5-----5-----------
G:-----------4\2-----------------------
D:-------5-------------------------2--2 <---1
A:------------------------------------x
E:-3/5-------------------5---5--3-----3 <---2
   (2)   3   (1)   (4)   2 4 2  2  1 


Chorus

E:--------------------------------------
B:--------------------------------------
G:--------------------------------------
D:-3-----5-----7-----5-----3---2---3---5
A:-3-----5-----7-----5-----3---2---3---5
E:-1-----3-----5-----3-----1---0---1---3


"Every dog has his day..."

E:---------
B:---------
G:---------
D:-5----2-- <---3on5(1on2)
A:-x----x-
E:-5----3-- <---2


Jam

E:---------------------------------
B:-8---8----2----------------------
G:-7---6----2--3--4----------------
D:-5---x----2--2--x----------------
A:-7---7-------3--2-----------5h7--
E:-----5--------------0-3p0--------
                        (2)   1_4


Alternate Jam Section

Dave plays this instead of the last 3 part(0, p, h)

E:-----------
B:-----------
G:-7/9----9--
D:-x-x----x--
A:-5/7----7--
E:-----------


Alternate Jam

E:-----------11/12---11/12--
B:-8---8-----11/12---11/12--
G:-7---6-----11/12---11/12--
D:-5---x-----10/11---10/11--
A:-7---7-----11/12---11/12--
E:-----5--------------------