Tuning: Standard

E-A-D-G-B-E


Difficulty: Tim n/a


Additional Tabs:


Helpful Videos:

> DMB '12

Studio Version:

Most Helpful Video:

Album: UTTAD

 

What Would You Say - Tim's Solo Luther College













Solo

Tim Reynolds Solo (2:38 - 2:52)

E-----12-12-^15-r15--12-12-15-^14--12-12-15-^14-^14--12-12-15-^14-r14-12--------------------
B------------------------------------------------------------------------15-^14-14-12-------
G-------------------------------------------------------------------------------------14-^12
D-------------------------------------------------------------------------------------------
A-------------------------------------------------------------------------------------------
E-------------------------------------------------------------------------------------------


E-12-12-15-^14-^14-r14-14-12----12---------12-------------12-------------12-----------------
B----------------------------15----^15~15-----15-12-13-14----15-12-13-14----14--------------
G-------------------------------------------------------------------------------------------
D-------------------------------------------------------------------------------------------
A-------------------------------------------------------------------------------------------
E-------------------------------------------------------------------------------------------


E-15-12-^15-r15-12---------^15-r15-^15------------------------------------------------------
B-----------------15-12-15-^15-r15-^12-15----15-^15-r15-------------------------------------
G--------------------------------------14-12-14-^14-r14-------------------------------------
D-------------------------------------------------------14-12-------------------------------
A-------------------------------------------------------------14-12-10-12-^10-r10--12-13-14-
E-------------------------------------------------------------------------------------------