E:---------------------------------------1-----1-----3---------------------------------------------

B:---------------------------------1-----3-----3-----0-----------1-----1-----1---------------------

G:--10----12-----9----(5)----2-----2-----2-----2-----0-----2-----2-----2-----2-----2---------------

D:---------------x-----7-----3-----2-----0-----------0-----0-----2-----2-----------3---------------

A:---------------7-----7-----3-----0-----------3-----2-----------0-----------------3---------------

E:--8-----10-----8-----5-----1-----------------------3-----1-----------3-----2-----1----/4----4/8--

Most Helpful Video:

Originally by: John Lennon

 

Watching the Wheels













Tuning: Standard

E-A-D-G-B-E


Difficulty: ***

Advanced


Additional Tabs:



Helpful Videos:

E:-------------------------------------------------
B:-------------------------------------------------
G:--------------9--------9--x--x-------9--------9--
D:--------------10-------10-x--x--10h12---10h12----
A:-------------------------------------------------
E:--8----------------------------------------------
    1  `  2  `  3  `  4  `  1  `  2 `  3  `  4  `


E:--------------------------------------------------
B:--------------------------------------------------
G:--10-------9--x--x--------------------------------
D:--10-------10-x--x--10----------10----10----10-10-
A:--8-----------------8-----------------8-----------
E:--------------------------------------------------
    1  `  2  `  3  `  4  `  1  `  2  `  3  `  4  `


F   x8Axxx << A=10
Dm   x57765
G   320003


then


F   133211
Dm    xx0231
G   320003 > 320013


transition
E:-------------------
B:-------------------
G:---4---4/7---7/10--
D:-------------------
A:-------------------
E:---3---3/7---7/8---