Most Helpful Video:

Originally by: Phish

 

Waste













Tuning: Standard

E-A-D-G-B-E


Difficulty: ***

Advanced


Additional Tabs:



Helpful Videos:

Verse
E:---------------------------------------------------
B:-1---------1------0---------0------1---------1----- <---1
G:-0---0------------0---0------------3---3----------- <---4on3
D:--------2-----2----------2-----2---2------2-----2-- <---2
A:-3----------------3----------------3--------------- <---3
E:---------------------------------------------------
          2  1  2   3      2  1  2          2  1  2


E:-1--------------1----------------1------------------------------------ <---1
B:-1----1----3----1---------1------1---------1------1---------1------1-- <---1
G:------0----0----2---2------------1---1------------0---0------------0-- <---2on2(1on1)
D:----------------3------3-----3---3------3-----3----------2-----2------ <---3
A:--------------------------------------------------3----------------3-- <---3
E:----------------------------------------------------------------------
   1    1    4        2  3  1  3       1  3  1  3          2  2  2


"A Dream it's True..."
E:-1----------------1------------------------------------------------- <---1
B:-1---------1------1---------1------1---------1------1---------1----- <---1
G:-2---2------------1---1------------0---0------------0---0----------- <---2on2(1on1)
D:-3------3-----3---3------3-----3----------2-----2----------2-----2-- <---3
A:-----------------------------------3----------------3--------------- <---3
E:--------------------------------------------------------------------
       2  3  1  3       1  3  1  3          2  1  2          2  1  2


"So if I'm inside..."
E:-------------------
B:-4--------------1--
G:-3----3----2----0--
D:-1----3----3----2--
A:------1----3----3--
E:-----------1-------


"Come Waste Your Time..."
E:----------------
B:----------------
G:-2-----------7--
D:-3-----5-----8--
A:-3-----5-----8--
E:-1-----3-----6--