Tuning: Standard

E-A-D-G-B-E


Difficulty: ***

Advanced


Additional Tabs:



Helpful Videos:

> DMB '12

Studio Version:

Most Helpful Video:

Album: UTTAD

 

Warehouse













Album Intro

Played live in the old days

E:-----------------------------------------------
B:-x--x--x--x-x-x--x-x-x----x--x--x--x-x-x--x-x--
G:-x--x--x--7-x-x--x-x-x----x--x--x--7-x-x--x-x--
D:-x--x--11---9-x--x-x-x----x--x--11---9-x--x-x--
A:-x--9---------10-x-x-x----x--9---------10-9-7--
E:-7---------------x-x-x----7--------------------
   1  2  4  1 2 3           1  2  4  1 2 3  2 1


Stop Time Intro

This part is played twice to start off the song

E--------------------------
B-x--x----x--x--x--x-x-x---
G-x--x----x--x--x--7-x-x---
D-x--x----x--x--11---9-x---
A-x--9----x--9---------10--
E-7-------7----------------
  1  2    1  2  4  1 2 3


Stop Time Intro(Cont.)

E--------------------------------
B-x--x--x--x----x--x--x--x-x-x---
G-x--x--x--5----x--x--x--5-x-x---
D-x--x--9-------x--x--9----7-x---
A-x--7----------x--7---------8---
E-5-------------5----------------
  1  2  4  1    1  2  4  1 2 3 


E--------------------------------
B-x--x--x--x----x--x--x--x-x-x---
G-x--x--x--7----x--x--x--7-x-x---
D-x--x--11------x--x--11---9-x---
A-x--9----------x--9---------10--
E-7-------------7----------------
  1  2  4  1    1  2  4  1 2 3


Verse

E:---------------------------------------------
B:-x--x--x--x-x-x--x-x-x----x--x--x--x-x-x--x--
G:-x--x--x--7-x-x--x-x-x----x--x--x--7-x-x--x--
D:-x--x--11---9-x--x-x-x----x--x--11---9-x--x--
A:-x--9---------10-x-x-x----x--9---------10-9--
E:-7---------------x-x-x----7------------------
   1  2  4  1 2 3           1  2  4  1 2 3  2


"Leave all the lights on..."

E:-----------------------
B:-----------------------
G:-----------------------
D:-7-------7--7-------7--
A:-x---4/5-5--x---4/5-5--
E:-5----------3----------
       (1)        (1) 


"And here I sit.."

E:--------------
B:--------------
G:--------------
D:-9--9--11--9--
A:-x--7--9---7--
E:-7------------


"Fade away"

E:--------
B:--------
G:--------
D:-5---7--
A:-x---x--
E:-3---5--


"Every man and woman..."

E:--------------------
B:--------------------
G:-------9---------9--
D:--9----9----4----9--
A:--9----7----4----7--
E:--7---------2-------


Ending

Play the verse once on a single up-strum

E:---------------------------0-0--
B:--2-----------------------0--0--
G:--2----------------------1---1--
D:--2---------------------4----4--
A:-----------------------2-----2--
E:-------3----2----1----0------0--
         2    2    1     241


Alternate Ending

Played this live on 12-28-93

E:-----------------------------------x-x-x-x---------------------------0-0--
B:-x--x--x--x-x-x--x-x-x----x--x--x--3-x-x-x--2----2-----2-----2------0--0-- <---3on2
G:-x--x--x--7-x-x--x-x-x----x--x--x----4-x-x--2----2-----2-----2-----1---1-- <---2on2
D:-x--x--11---9-x--x-x-x----x--x--11-----5-4------------------------4----4--
A:-x--9---------10-x-x-x----x--9-----------------------------------2-----2--
E:-7---------------x-x-x----7-------------------3-----2-----1-----0------0--
   1  2  4  1 2 3           1  2  4  1 2 3 2    4     1     1      241