Studio Version:

Album: Some Devil

 

Up and Away













Tuning: Standard

E-A-D-G-B-E


Difficulty: ***

Advanced


Additional Tabs:



Helpful Videos:


Intro

E:--------------------------------------------------
B:--------------------------------------------------
G:----9\---------7-------5---------4-2-0---2---0-0--
D:----10\--------9-------7-------0-------4---4------
A:-----------------------------x--------------------
E:-8---------7-------5-------3----------------------
   1         1       1       2     4 1   4 1 4


Alternate Intro/Verse Ending

Fool around with this riff for nice effects

E:------------------------
B:------------------------
G:-------4-2-0---2-4-0-0--
D:-----0-------4----------
A:---x--------------------
E:-3----------------------
   2     4 1   4 1 4


Verse/Outro

Instead of the last 4 notes you can play end of Intro

E:--------------------------------------
B:--------------------------------------
G:----9--------7-------5-------4--2--0--
D:----10-------9-------7----------------
A:--------------------------------------
E:-8--------7-------5-------3-----------
   1        1       1       2  4  1


Verse Fill

Played when Dave is not singing & last 4 notes can be replaced with end of Intro

E:-------10p8p7---------10p8p7-------7/8---------------
B:-------------------8---------------------------------
G:----9-------------7-------------5----------4--2--0---
D:----10---------------------------7-------------------
A:-----------------------------------------------------
E:-8--------------7-------------5----------3-----------
   1      4_2_1   1      4_2_1  1    (3)   2  4  1


"Up, Up & Away..."

E:-3----2----0----0--
B:-0----3----2----1--
G:-0----4----2----2--
D:-0----4----2----2--
A:-2----2----0----0--
E:-3-----------------


"Like I'm dy..."

E:-3-----2----------
B:-3-----3---3---3--
G:-0-----2---2---0--
D:-0-----0---x---x--
A:-2---------3---2--
E:-3----------------


"Before you came..."

This part is followed directly by the part below

E:---------------------------------------
B:-3------------------------4----3----2--
G:-3----5----3----2----5----x----3----3--
D:-3----x----x----3----x----1----3----3--
A:-1----3----1----3----3----3----1----1--
E:------4----3----1----4-----------------


"Up, Up & Away...Ahhhhh"

This part is played directly following "Before you came..."

E:------0----2------------
B:------2----3----3----3--
G:-2----2----2----2----2--
D:-3----2----0----x----x--
A:-3----0---------3----2--
E:-1----------------------