Studio Version:

Most Helpful Video:

Album: UTTAD

 

Typical Situation













Tuning: Standard

E-A-D-G-B-E


Difficulty: ***

Advanced


Additional Tabs:


Helpful Videos:

> DMB '12

Verse

There are many variations of this that Dave plays, listen and you will hear them and understand how to play them

E:---------------------           E:---------------------
B:---------------------           B:---------------------
G:---------------------           G:---------------------
D:----9------9------9-- x2 then   D:----9------9------9-- x2
A:-------10-----10-----           A:-------10-----10-----
E:-0-------------------           E:-8-------------------
      2   3  2   3  2                1  2   3  2   3  2


Alternate Intro/Fill

Dave sometimes does this when not singing(and also does variations as stated above)

E:---------------------           E:------------------------------------------
B:---------------------           B:------------------------------------------
G:---------------------           G:------------------------------------------
D:----9------9------9-- x2 then   D:----9------9------9------9------9------9--
A:-------10-----10-----           A:-------10-----10------------10-----10-----
E:-0-------------------           E:-8--------------------7-------------------
      2   3  2   3  2                1  2   3  2   3  2   1  2  3   2  3   2


Harmonics

Fool around w/ these harmonics to get the cool sound Dave adds sometimes. He plays em differently almost every time..just have fun!

E:-*7--------*12--
B:-*7--------*12--
G:-*7--------*12--
D:-*7--------*12--
A:----------------
E:----------------


Chorus

See finger chart for this section

E------------------------------------------------------------------
B----------------------------------------------------------1----1--
G-0h2--2---0h2--2----0h2--2---0h2--2----0h2--2---0h2--2----x----2--
D-0----0---0----0----0----0---0----0----2----2---2----2----2----x--
A-x----x---x----x----x----x---x----x----0----0---0----0----3----3--
E-3----3---3----3----1----1---1----1-------------------------------