Studio Version:

Most Helpful Video:

Album: UTTAD

 

Typical Situation - Tim's Parts Live at Luther













Tuning: Standard

E-A-D-G-B-E


Difficulty: Tim n/a



Additional Tabs:


Helpful Videos:

> DMB '12

​> Live at Luther

Tim's SOLO

(The entire rest of Tim's parts for the song are found below)[Live at Luther Version]

This is not an exact version of what Tim plays, but a good base to improv with.

(0:11)
E:-------------------------------------------12-12-12-15-1515-15-15----15-12------------
B:---12-12----10--13-12-------------14-14-14----------------------------------15-12-----
G:---12-12----10--14-14----12-14-14-------------------------------------------------14--
D:--------------------------------------------------------------------------------------
A:--------------------------------------------------------------------------------------
E:--------------------------------------------------------------------------------------

(0:20)
E:-------------------------------repeat-------------------------------------------------
B:-------12h15-14^15v 12------------------15-15-15-15-13-12----15-12--------------------
G:--12h14----------------14-12---as-------------------------14--------------------------
D:---------------------------------needed-----------------------------------------------
A:--------------------------------------------------------------------------------------
E:-------------------------------repeat-------------------------------------------------

(0:29)
E:--15---------15----IMPROV-TIME---15---------15------12-----------------------12-12-12-
B:--------12h15--------------12h15-------12h13------------15-12--------------12---------
G:--12-----------12---12h14----------14----------14-------------14-12--12-14------------
D:--------------------------------------------------------------------------------------
A:--------------------------------------------------------------------------------------
E:--------------------------------------------------------------------------------------

(0:39)
E:--15---17-15-15--17--19---15---17-15-15--17--19---15---17-15-15--17--19---------------
B:--------------------------------------------------------------------------------------
G:--------------------------------------------------------------------------------------
D:--------------------------------------------------------------------------------------
A:--------------------------------------------------------------------------------------
E:--------------------------------------------------------------------------------------

(0:45)
E:--17--19--17--19-17-17------------17-16-15----------------15---------------------------
B:------------------------17-16-15------------15-13-12-----------------------------------
G:-----------------------------------------------------14-12-----------------------------
D:---------------------------------------------------------------------------------------
A:---------------------------------------------------------------------------------------
E:---------------------------------------------------------------------------------------

(0:50)
E:--------15----------15------15-----------15------15----13--------------15----------15--
B:----15------15--15------15-------13--13------13------13----13--14--14------14--14------
G:--12--12--12--12--12--12--12---12--12--12--12--12--12----12--12--12--12--12--12--12----
D:---------------------------------------------------------------------------------------
A:---------------------RAPID PICKING-----------------------------------------------------
E:---------------------------------------------------------------------------------------

(0:56)
E:--------------------------------------------0--0--0--0----------15-15-15------12---10--
B:--------12-13--12---------------------------3--5--8--13---------12-12-12------12---10--
G:--12-14------------14--12--11--9--7--5--4---4--5--9--12---------14-14-12------14---12--
D:------------------------------------------^STRUM RAPIDLY^------------------------------
A:----------------------------------------------------------^IMPROV STRUM PATTERN^-------
E:---------------------------------------------------------------------------------------

(1:15)                         
E:--3---1---5---8------15----------------------------------------------------------------
B:--0---1---5---8------15----------------------------------------------------------------
G:--4---0---x---x------x----------------12h14-12--------------------12h14-12----12-------
D:--5---4---7---10-----17----------12h14---------14------------12h14---------14----------
A:--^RAPID CHOPS^-------------12h14-----------------12----12h14--------------------------
E:---------------------------------------------------------------------------------------

(1:32)
E:---------------------------------------------------------------------------------------
B:-----------12---12h13p12---------------12h13p12----------15------12h13p12--------------
G:-----12-14---------------14-12------------------14-12-------14-------------14----------
D:--14---------------------------14-12------------------14----------------------12-------
A:---------------------------------------------------------------------------------14----
E:------------------------------------------------------------------------------------15-

(1:45)
E:---------------------------------------------------------------------------------------
B:---------------------------------------------------------------------------------------
G:---------------------------------------------------------------------------------------
D:----9--9--9--9--9--9-7-7-7-7-7-7-7-7-7-7-7-7--10--10--10--10--10--10-------------------
A:--10-10-10-10-10-10-8-8-8-8-8-8-7-7-7-7-7-7-10--10--10--10--10--10---------------------
E:---------------------------------------------------------------------------------------

(1:54)
E:---------------------------------------------------------------------------------------
B:---------------------------------------------------------------------------------------
G:---------------------------------------------------------------------------------------
D:----5---5---5---5----3---3---3---3----7---7---7---7----10---10---10--------------------
A:---------------------------------------------------------------------------------------
E:--3---3---3---3----1---1---1---1----5---5---5---5----8----8----8----8------------------


 

**  * The Entire Song Begins Here * **


    Em                                    Cmaj7            
E||------------------|------------------|------------------|
B||------------------|------------------|------------------|
G||------------------|------------------|------------------|
D||------------------|------------------|------------------|
A||------------------|------------------|------------------|
E||------------------|------------------|------------------|

                       Em                                           
--------------------|-------------------|----------10--10------10--|
--------------------|--3----------------|----------12--12------12--|
-----------------0--|-------------------|-----------------12-------|
-------------4------|-------------------|--------------------------|
--------------------|-------------------|--------------------------|
--------------------|-------------------|--------------------------|

  Cmaj7                                        Em                   
----------12--------|--------12-------------|------------12--------|
--------------------|------------12----7----|---------7------------|
--------------------|-----------------------|--5-------------------|
--------------------|-----------------------|----------------------|
--------------------|-----------------------|----------------------|
--------------------|-----------------------|----------------------|

                           Cmaj7                                       
------------12----------|----------12---------|-----------------------|
-------7----------------|------------------7--|-------12--------------|
--5---------------------|---------------------|--5----------12--------|
------------------12----|---------------------|-----------------------|
------------------------|---------------------|-----------------------|
------------------------|---------------------|-----------------------|

  Em                                                   Cmaj7                
--12-------------7-----|----12------------7---------|----------------------|
----------7------------|---------7------------------|------------12--------|
-------------5---------|-------------5---------7----|----------------------|
-----------------------|----------------------------|--12------------------|
-----------------------|----------------------------|----------------------|
-----------------------|----------------------------|----------------------|

                         Em                                      
----------------------|------------------|----------------0-----|
----------------------|------------------|-------------------3--|
--------12-----12~----|------------------|-------------0--------|
----------------------|------------------|--------4-------------|
----------------------|------------------|----------------------|
----------------------|------------------|----------------------|

  Cmaj7                                             Em                   
-----------------------|-------------------------|----------------------|
--------------0h3------|----------0-----------0--|-------------12-----7-|
-----------------------|------4-------4----------|-----------------7----|
-----4-----5--------4--|--------5----------5-----|----------------------|
-----------5-----------|--5----------------------|----------------------|
-----------------------|-------------------------|----------------------|

                            Cmaj7                                          
-------------------------|-------------------------|----------------------|
-------------------------|-----------8----------8--|----------------------|
-----7--9-7-7--7--9------|-------7----------7------|----------------------|
----------------------9--|--10----------9----------|--7----------5--4/-2--|
-------------------------|-------------------------|----------------------|
-------------------------|-------------------------|----------------------|

  Em                                              Cmaj7            
------------------------|-------------------3--|------------------|
------------------------|---------------5---5--|------------------|
------------------------|-----------4---4------|------------------|
---------------5--------|-----------5----------|------------------|
-----2-2--2-------------|----------------------|------------------|
--0---------0-----------|--0-------------------|------------------|

                          Em                                               
----8------------------|------------------------|-------------------------|
------8----------------|-----8---8--------------|-------------------------|
--------9--------------|--11-------11-----------|-------------------------|
----------12-----------|------------------------|-------------------2--4--|
-----------------------|------------------------|----2--------2--5--------|
-----------------------|------------------------|-------3--5--------------|

  Cmaj7                                         Gsus2                
-------------------|-------12---8--8--7------|----------------------|
-------------------|--8---------------0------|-------0--------------|
-------------------|--9----12---9--9--7------|----------------0-----|
--5----------------|-------10----------------|----------0-----------|
-------------------|--10---------------------|----------------------|
-------------------|-------------------------|-------------3--------|

  F6                         A5                      C                    
--------------------------|-----------------------|----------------------|
--------------------------|-----------------------|----------8-----------|
-----2--0--2--------------|------6--------6-------|-------9--------------|
--------------3--3-3-3--3-|----------5------------|----12----------------|
--------------------------|----7-------7----------|----------------------|
--------------------------|-----------------------|----------------------|

  Gsus2                                F6                    
------------------------------------|----------8------------|
---12----10----12----12----10---12--|---10------------------|
------12----------12----12----------|-------10--------------|
------------------------------------|-----------------------|
------------------------------------|-----------------------|
------------------------------------|-----------------------|

  A5                       C                         Em                    
------------------------|-------------------------|-----------------------|
------------------------|------1---1--1-1--1---0--|-----------------------|
--------2-2---2---2-----|------0---0--2-2--2---0--|-----------------------|
------------2---2-------|------2---2--------------|------------4---4------|
------------------------|--3----------------------|---------5----------5--|
------------------------|-------------------------|-----3-----------------|

                       Cmaj7                                 
--------------------|-------------------|-------------------|
--------------------|--3----------------|--3----------------|
-----------------0--|-------------------|--0----------------|
-------------4------|-------------------|--4----------------|
--------------------|-------------------|-------------------|
--------------------|-------------------|-------------------|

  Em                                         Cmaj7               
--------------------|---------------------|---------------------|
--------------------|---------------------|---------------------|
--------------------|---------------------|---------------------|
--------------------|--7~-----------------|--5~--------------5--|
-------------4---5--|------------------5--|--------------3------|
--------------------|--------------7------|---------------------|

                         Em                                   
--3-----------12------|------------------|-------------------|
--3----------------8--|------------------|-------------------|
--5-------------------|------------------|-------------------|
----------------------|------------------|----------9~-------|
----------------------|------------------|-------------------|
----------------------|------------------|-------------------|

  Cmaj7                                     Em                
------------------|----------------------|-------------------|
------------------|----------------------|-------------------|
------------------|--------2----------2--|--0----------------|
------------------|----5-------4---------|--2----------------|
------------------|----------------------|-------------------|
------------------|----------------------|-------------------|

                       Cmaj7                                
--------------------|-------------------|------------------|
--------------------|-------------------|------------------|
-----------4--------|-------------------|------------------|
--5--------x--------|--5----------------|------------------|
--2--------5--------|--3----------------|------------------|
--------------------|-------------------|------------------|

  G                           F                            
------3------3-------3-----|-------1--------1-------1-----|
------3--------3-------3---|----------1-------1-------1---|
------0----------0---------|------------2-------2---------|
------0------------0-------|-----3--------3-------3-------|
---------------------------|------------------------------|
--3--------3---------------|--1---------------------------|

  A5                           C                           
-------5-------5------5-----|--------8------8-------7---0-|
----------5------5------5---|-----------8------8----------|
----------------------------|-------------9------9--------|
-----7-------7------7-------|-----10----------------------|
----------------------------|-----------------------------|
--5-------------------------|--8--------------------------|

  G                                F                           
--------------------------------|-----------------------------|
-------12-----12----12-----12---|------------10------10-------|
-----------12-----------12------|---------10-----10------10---|
--------------------------------|-----------------------------|
--10----------------------------|----8------------------------|
--------------------------------|-----------------------------|

  Asus2   A     Asus2  A      Csus2                        
---------------------------|-------3--3-3-3-3-3-3-3-3--3/-|
-------0--2-2---0-0--0-2---|-------3--3-3-3-3-3-3-3-3--3/-|
-------2--2-2---2-2--2-2---|-----0----0-0-0-0-0-0-0-0-----|
-----2---------------------|----------x-x-x-x-x-x-x-x-----|
--0------------------------|--3-------3-3-3-3-3-3-3-3-----|
---------------------------|------------------------------|

  G                          F           Fmaj7         A5                     
--7/--3--3--3--3----7-7-7-|--7/5-5-5-----0---0--0---|--5---5-------5--5--5---|
--8/--3--3--3--3----8-8-8-|--8/6-6-6-----6---6--6---|--5---5-----5-7--7--5---|
--7/--0--0--0--0----7-7-7-|--7/5-5-5-----5---5--5---|--x---x-----------------|
------0--0--0--0----------|--------------7---7--7---|--7---7-----------------|
------x--x--x--x----------|-------------------------|------------------------|
------3--3--3--3----------|-------------------------|------------------------|

  Csus2                      G                         
--3---3--3-3---3--3-3--3--|-----3-3--3----3-3----3----|
--3---3--3-3---3--3-3--3--|-----3-3--3----3-3----3----|
--0---0--0-0---0--0-0--0--|-----0-0--0----0-0----0----|
--x---x--x-x---x--x-x--x--|-------------------0-------|
--3---3--3-3---3--3-3--3--|------------2--------------|
--------------------------|--3------------------------|

  F                         A5                         C                        
-----1-1--1-1-------1----|--------------------------|--0---0--0-0---0--0-0--0--|
-----1-1--1-1-------1----|--------------------------|--1---1--1-1---1--1-1--1--|
-----2-2--2-2-------2----|--2---2--2-2---2--2-2--2--|--0---0--0-0---0--0-0--0--|
-----3-3--3-3-------3----|--2---2--2-2---2--2-2--2--|--2---2--2-2---2--2-2--2--|
-----------------3-------|--0---0--0-0---0--0-0--0--|--3---3--3-3---3--3-3--3--|
--1----------------------|--------------------------|--------------------------|

  Em                                                    
-----7--------------|----------------------------------|
--------------------|----12-------------------12-------|
--------------------|--------12------------------12----|
--------------------|------------16------16---------16-|
--------------------|----------------14----------------|
--0-----------------|----------------------------------|

  Cmaj7                                                  Em                   
-----------------------------8-|----------12---7------|-----------10---7-----|
-------------12------------8---|----------12---8------|----8------12---8-----|
---------12--------------9-----|-------------------9--|----------------------|
------16-------------12--------|----------------------|----------------------|
--14---------------------------|----------------------|----------------------|
-------------------------------|----------------------|----------------------|

                          Cmaj7                                          
--7--------------------|-----------------------|------------------------|
--8------7--8---8---8--|--8/--10--------8------|--7/--5---5--3---0------|
---------7--9---9---9--|--9/--11--------9/--7--|--7/--5---4--2---0------|
-----------------------|-----------------------|---------------------2--|
-----------------------|-----------------------|------------------------|
-----------------------|-----------------------|------------------------|

  Em                                            Cmaj7              
------------------|----------19--17--15------|--------------------|
------------------|----------------------17--|--15----------------|
------------------|--------------------------|--------------------|
------------------|--------------------------|--------------------|
------------------|--------------------------|--------------------|
------------------|--------------------------|--------------------|

                           Em                     
--8-----8-----8---------|------------------------|
--8-----8-----8---------|--12---12--12-----------|
--9-----9-----9---------|--12---12--12-----------|
--12----12----12--------|--16---16--16-----------|
------------------------|--14---14--14-----------|
------------------------|------------------------|

                                            Cmaj7                           
-----------------------------------------|---------------------------------|
-----0----0----0----0----0----0----0-----|-------------------------12------|
--11---11---11---12---11---11---11-------|------12-12-12--12--12---12---7--|
-------------------------------------12--|--12--12-12-12--12--12--------7--|
-----------------------------------------|--12-----------------------------|
-----------------------------------------|---------------------------------|

                                  Em                     
-------------------------------|------------3-----------|
-------------------------------|-------7-------7--------|
--5---12-12-12-12--------------|---------7--------7--7--|
--5---12-12-12-12--12----12----|------------------------|
-------------------12----12----|------------------------|
-------------------------------|------------------------|

                                Cmaj7                      
-----------------------------|----------------------------|
------3--3----------3------0-|---------3----------3-------|
-------------0----0------0---|------0-----0---0------0----|
----4------4----4------4-----|----4---------4---4------4--|
-----------------------------|----------------------------|
-----------------------------|----------------------------|

                                Em                         
-----------------------------|----------------------------|
----------3----------3-------|----------------------------|
-------0-----0---0------0----|------0--0---0---0---0------|
-----4---------4---4------4--|----4------5---5---4----4---|
--3--------------------------|----------------------------|
-----------------------------|----------------------------|

                                   Cmaj7                         
--------------------------------|-------------------------------|
--------------------------------|----1----------0---------------|
----2----2----2---2---2---2-0---|--2----2h0---2-----5-5---0---0-|
--5----5----5---5---5---5-----4-|-----------4-------5-5-5---5---|
--------------------------------|-------------------------------|
--------------------------------|-------------------------------|

                                G                         
-------0--7---7-0--------0---|------3------3-------3-----|
----3-------8-----8---0------|------3--------3-------3---|
--4-----------------7--------|------0----------0---------|
-----------------------------|------0------------0-------|
-----------------------------|---------------------------|
-----------------------------|--3--------3---------------|

  F                              A5                         
-------1--------1-------1-----|-------5-------5------5-----|
----------1-------1-------1---|----------5------5------5---|
------------2-------2---------|----------------------------|
-----3--------3-------3-------|-----7-------7------7-------|
------------------------------|----------------------------|
--1---------------------------|--5-------------------------|

  C                             G                              
--------8------8-------7---0-|--------------------------------|
-----------8------8----------|-------12-----12----12-----12---|
-------------9------9--------|-----------12-----------12------|
-----10----------------------|--------------------------------|
-----------------------------|--10----------------------------|
--8--------------------------|--------------------------------|

  F                             Asus2   A     Asus2  A    
-----------------------------|---------------------------|
------------10------10-------|-------0--2-2---0-0--0-2---|
---------10-----10------10---|-------2--2-2---2-2--2-2---|
-----------------------------|-----2---------------------|
----8------------------------|--0------------------------|
-----------------------------|---------------------------|

  Csus2                          G                        
-------3--3-3-3-3-3-3-3-3--3/-|--7/--3--3--3--3----7-7-7-|
-------3--3-3-3-3-3-3-3-3--3/-|--8/--3--3--3--3----8-8-8-|
-----0----0-0-0-0-0-0-0-0-----|--7/--0--0--0--0----7-7-7-|
----------x-x-x-x-x-x-x-x-----|------0--0--0--0----------|
--3-------3-3-3-3-3-3-3-3-----|------x--x--x--x----------|
------------------------------|------3--3--3--3----------|

  F           Fmaj7         A5                       Csus2                    
--7/5-5-5-----0---0--0---|--5---5-------5--5--5---|--3---3--3-3---3--3-3--3--|
--8/6-6-6-----6---6--6---|--5---5-----5-7--7--5---|--3---3--3-3---3--3-3--3--|
--7/5-5-5-----5---5--5---|--x---x-----------------|--0---0--0-0---0--0-0--0--|
--------------7---7--7---|--7---7-----------------|--x---x--x-x---x--x-x--x--|
-------------------------|------------------------|--3---3--3-3---3--3-3--3--|
-------------------------|------------------------|--------------------------|

  G                           F                       
-----3-3--3----3-3----3----|-----1-1--1-1-------1----|
-----3-3--3----3-3----3----|-----1-1--1-1-------1----|
-----0-0--0----0-0----0----|-----2-2--2-2-------2----|
-------------------0-------|-----3-3--3-3-------3----|
------------2--------------|-----------------3-------|
--3------------------------|--1----------------------|

  A5                         C                        
--------------------------|--0---0--0-0---0--0-0--0--|
--------------------------|--1---1--1-1---1--1-1--1--|
--2---2--2-2---2--2-2--2--|--0---0--0-0---0--0-0--0--|
--2---2--2-2---2--2-2--2--|--2---2--2-2---2--2-2--2--|
--0---0--0-0---0--0-0--0--|--3---3--3-3---3--3-3--3--|
--------------------------|--------------------------|

  Gadd9                            F6                                  
-------3--3-7-7-7-7-7-7-7-7-7-7-|--7-8--8--8---7-7-7--8--8--8---7-7-7-|
-----3-3--3-8-8-8-8-8-8-8-8-8-8-|--8-10-10-10--8-8-8--10-10-10--8-8-8-|
-----0-0--0---------------------|-------------------------------------|
-----0--------------------------|-------------------------------------|
-----x--------------------------|-------------------------------------|
--3--3--------------------------|-------------------------------------|

  A5                                       
-----------------------12-12-12~-15-15-15~|
---10-10-10~-14-14-14~--------------------|
------------------------------------------|
------------------------------------------|
------------------------------------------|
------------------------------------------|

  C                                        Gadd9                            
---15-15-15~-15--15--12-12-12~----------|----------------------------------|
-------------------------------15-12-12~|---15--13r-12------------------12-|
----------------------------------------|--------------14-12------12-14----|
----------------------------------------|----------------------------------|
----------------------------------------|----------------------------------|
----------------------------------------|----------------------------------|

  F6                                       
------------------------------------------|
--15-13b-13r-12--------------12-15-13b-13r|
----------------14-12--12-14--------------|
------------------------------------------|
------------------------------------------|
------------------------------------------|

  A5                                       
------------------------------------------|
---12--------------12-15-14r-15-14r-15-14b|
------14-12--12-14------------------------|
------------------------------------------|
------------------------------------------|
------------------------------------------|

  C                                            
------------------------------------15--15-15-|
---15-13-15-12-15----15-12--------------------|
------------------14-------12-12-12-----------|
----------------------------------------------|
----------------------------------------------|
----------------------------------------------|

  Gadd9                                    
--------15--------15-----15------------15-|
--12-15----12~-15----14-----15---12-12----|
------------------------------------------|
------------------------------------------|
------------------------------------------|
------------------------------------------|

  F6                                         
--------15--------15--------15--------15-12-|
--12-13----12--13----12~-13----12--13-------|
--------------------------------------------|
--------------------------------------------|
--------------------------------------------|
--------------------------------------------|

  A5                                     C                              
--------------------------------11-12-|---12--12~-12--12----15--17-15--|
---15--14--12--------12--14--15-------|--------------------------------|
--------------14~-14------------------|--------------------------------|
--------------------------------------|--------------------------------|
--------------------------------------|--------------------------------|
--------------------------------------|--------------------------------|

  Gadd9                              F6                               
--15--17---19--15--17-15~-15--17--|---19--15--17-15~-15--17---19--17-|
----------------------------------|----------------------------------|
----------------------------------|----------------------------------|
----------------------------------|----------------------------------|
----------------------------------|----------------------------------|
----------------------------------|----------------------------------|

  A5                                   
---19-17~-17--19--17-19--17-----------|
-----------------------------17-16-15-|
--------------------------------------|
--------------------------------------|
--------------------------------------|
--------------------------------------|

  C                                          
---17-15-15---------------------------------|
-------------15-13-12--------15----15----15-|
-----------------------14-12----12----12----|
--------------------------------------------|
--------------------------------------------|
--------------------------------------------|

  Gadd9                                            
-----15----------------------15-------------------|
-----------15----12----15----------15----12----15-|
--12----12----12----12----12----12----12----12----|
--------------------------------------------------|
--------------------------------------------------|
--------------------------------------------------|

  F6                                               
-----15----------------13-------------------------|
-----------15----13----------13----12----15----14-|
--12----12----12----12----12----12----12----12----|
--------------------------------------------------|
--------------------------------------------------|
--------------------------------------------------|

  A5                                             C                           
---------15----------------15----15-----------|------0---0---0--0--0--0-----|
---14----------14----14-14-------14--------12-|--13--12--10--8--7--5--3-----|
------12----12----12----------12-----12-14----|--------------------------5--|
----------------------------------------------|-----------------------------|
----------------------------------------------|-----------------------------|
----------------------------------------------|-----------------------------|

  G6add9                             F6                              
--0-0-0-0-0-0-0-0-0-0-0-0-0-0-0-0-|--0-0-0-0-0-0-0-0-0-0-0-0-0-0----|
--3-3-3-3-3-3-3-3-3-3-3-3-3-3-3-3-|--6-6-6-6-6-6-6-6-6-6-6-6-6-6-6/-|
--4-4-4-4-4-4-4-4-4-4-4-4-4-4-4-4-|--5-5-5-5-5-5-5-5-5-5-5-5-5-5-5/-|
----------------------------------|---------------------------------|
----------------------------------|---------------------------------|
----------------------------------|---------------------------------|

  A5                                             
--0--0--0--0--0--0--0--0--0--0--0--0--0--0------|
--10-10-10-10-10-10-10-10-10-10-10-10-10-10-10/-|
--9--9--9--9--9--9--9--9--9--9--9--9--9--9--9/--|
------------------------------------------------|
------------------------------------------------|
------------------------------------------------|

  C                                                
--12-12-12-12-12-12-12-12-12-12-12-12-12-15-15-15-|
--13-13-13-13-13-13-13-13-13-13-13-13-13----12-12-|
--------------------------------------------14-14-|
--------------------------------------------------|
--------------------------------------------------|
--------------------------------------------------|

  Gadd9                                  F6                                 
--15--15-15--15--15-15--15--15--15-15-|---15--15--15-15--15--15--15--15-12-|
--12--12-12--12--12-12--12--12--12-12-|---12--12--12-12--x---x---x---x--12-|
--14--12-12--14--14-14--12--14--14-14-|---12--14--14-14--12--14--14--12-14-|
--------------------------------------|------------------------------------|
--------------------------------------|------------------------------------|
--------------------------------------|------------------------------------|

  A5                               C                                
---12--12----12--12----12--12---|--10--10--10--x-10--10--10--x-10--|
---12--12----12--12----12--12---|--13--13--13--x-13--13--13--x-12--|
---14--14--0-14--14--0-14--14---|--12--12--12--x-12--12--12--x-12--|
--------------------------------|----------------------------------|
--------------------------------|----------------------------------|
--------------------------------|----------------------------------|

  Gadd9                                  
--------------------10-0---0--0---------|
--12--12-12--12-12--12-12--12-12--12-12-|
--12--12-12--12-12--12-12--12-12--12-12-|
----------------------------------------|
----------------------------------------|
----------------------------------------|

  F6                                       
---------0-------0-------0-------0--------|
------10------10------10------10------10--|
---10------10------10------10------10-----|
------------------------------------------|
------------------------------------------|
------------------------------------------|

  A5                                     C                             
--0--0---0--0---9--0---0--0---0--0----|-------------------------------|
--10-10--10-10--10-10--10-10--10-10---|-------------------------------|
--9--9---9--9---9--9---9--9---9--9----|--9---9--9--7--7--5--5-5-4--4--|
--------------------------------------|--10--10-10-9--9--7--7-7-5--5--|
--------------------------------------|-------------------------------|
--------------------------------------|-------------------------------|

  G                           F                            
------3------3-------3-----|-------1--------1-------1-----|
------3--------3-------3---|----------1-------1-------1---|
------0----------0---------|------------2-------2---------|
------0------------0-------|-----3--------3-------3-------|
---------------------------|------------------------------|
--3--------3---------------|--1---------------------------|

  A5                           C                           
-------5-------5------5-----|--------8------8-------7---0-|
----------5------5------5---|-----------8------8----------|
----------------------------|-------------9------9--------|
-----7-------7------7-------|-----10----------------------|
----------------------------|-----------------------------|
--5-------------------------|--8--------------------------|

  G                                F                           
--------------------------------|-----------------------------|
-------12-----12----12-----12---|------------10------10-------|
-----------12-----------12------|---------10-----10------10---|
--------------------------------|-----------------------------|
--10----------------------------|----8------------------------|
--------------------------------|-----------------------------|

  Asus2   A     Asus2  A      Csus2                        
---------------------------|-------3--3-3-3-3-3-3-3-3--3/-|
-------0--2-2---0-0--0-2---|-------3--3-3-3-3-3-3-3-3--3/-|
-------2--2-2---2-2--2-2---|-----0----0-0-0-0-0-0-0-0-----|
-----2---------------------|----------x-x-x-x-x-x-x-x-----|
--0------------------------|--3-------3-3-3-3-3-3-3-3-----|
---------------------------|------------------------------|

  G                          F           Fmaj7         A5                     
--7/--3--3--3--3----7-7-7-|--7/5-5-5-----0---0--0---|--5---5-------5--5--5---|
--8/--3--3--3--3----8-8-8-|--8/6-6-6-----6---6--6---|--5---5-----5-7--7--5---|
--7/--0--0--0--0----7-7-7-|--7/5-5-5-----5---5--5---|--x---x-----------------|
------0--0--0--0----------|--------------7---7--7---|--7---7-----------------|
------x--x--x--x----------|-------------------------|------------------------|
------3--3--3--3----------|-------------------------|------------------------|

  Csus2                      G                         
--3---3--3-3---3--3-3--3--|-----3-3--3----3-3----3----|
--3---3--3-3---3--3-3--3--|-----3-3--3----3-3----3----|
--0---0--0-0---0--0-0--0--|-----0-0--0----0-0----0----|
--x---x--x-x---x--x-x--x--|-------------------0-------|
--3---3--3-3---3--3-3--3--|------------2--------------|
--------------------------|--3------------------------|

  F                         A5                         C                        
-----1-1--1-1-------1----|--------------------------|--0---0--0-0---0--0-0--0--|
-----1-1--1-1-------1----|--------------------------|--1---1--1-1---1--1-1--1--|
-----2-2--2-2-------2----|--2---2--2-2---2--2-2--2--|--0---0--0-0---0--0-0--0--|
-----3-3--3-3-------3----|--2---2--2-2---2--2-2--2--|--2---2--2-2---2--2-2--2--|
-----------------3-------|--0---0--0-0---0--0-0--0--|--3---3--3-3---3--3-3--3--|
--1----------------------|--------------------------|--------------------------|

  Em                                                              
------------------|----------------------|----------0---------0--|
------------------|--8---8---8--8--------|-------------0---------|
------------------|--0---0---0--0--------|-----------------------|
------------------|--9---9---9--9--------|----------------12-----|
------------------|--7---7---7--7--------|-----------------------|
------------------|--0---0---0--0--------|-----------------------|
                                                
----------------------------|------------------||
--0---------0---------------|------------------||
-----0---------0---------0--|------------------||
------------------0---------|------------------||
--------12------------------|------------------||
---------------------12-----|------------------||