Tuning: Standard

E-A-D-G-B-E


Difficulty: ***

Advanced


Additional Tabs:



Helpful Videos:

> Dave and Tim '13

> Dave and Tim '97

Newer Intro

E:-------------
B:-------------
G:-10---9---3--
D:-x----x---x--
A:-8----7---1--
E:-10---8---3\-


Older intro

E:-----
B:-----
G:-10--
D:-x---
A:-8---
E:-10--


Bridge/Fill

E:-----------------------
B:-----------------------
G:-10----10--10--10--10--   <---4 
D:-x-----x---x---x---x---
A:-8-----x---x---8---8---  
E:-10----6---8-------10--   <---1on6&8


Verse

E:-------------------------------------------------------------------------------
B:-------------------------------------------------------------------------------
G:-10---7\9----2-----7---5---3----10---7\9----2-----7---5---3---2-----7---5---3--
D:-x----x\x----3-----x---x---x-----x---x\x----3-----x---x---x---3-----x---x---x--
A:-8----5\7----3-----5---3---1-----8---5\7----3-----5---3---1---3-----5---3---1--
E:-10---6\8----1---2\6---5---3----10---6\8----1---2\6---5---3---1---2\6---5---3--
                   (2)                            (2)               (2)


Chorus

E:------------------------
B:------------------------
G:-2------9---3-----7-----
D:-3------x---x-----x-----
A:-3------7---1-----5--x--
E:-1----2\8---3---2/6--5--
        (2)       (2)


"Things we cannot change..."

E:---------------------
B:---------------------
G:-2------7----5----3--
D:-3------x----x----x--
A:-3------5----3----1--
E:-1----2\6----5----3--
        (2)


Newer Jam

Last part with repeated 7's & 8's is played sometimes but he jams on the bridge part

E:---------------------------------------------
B:---------------------------------------------
G:-10----10--10--10--10--10-10-10-10-10-10-10--  <---4 
D:-x-----x---x---x---x---x--x--x--x--x--x--x---
A:-8-----x---x---8---8---8--7--8--7--8--7--8---  <---1
E:-10----6---8-------10------------------------  <---1on6&8


Older jam was just chorus repeated

Studio Version:

Most Helpful Video:

Album: Crash

 

Two Step