Most Helpful Video:

 

True Reflections













Tuning: Standard

E-A-D-G-B-E


Difficulty: ***

Advanced


Additional Tabs:



Helpful Videos:


Intro/Verse
7's are harmonics
E:------------------------
B:------------------------
G:-2/6--6h7-----------<7>-- <---2on2&6
D:-2/7--7---------5---<7>-- <---3on2&7
A:--------------------<7>--
E:------------5-----------
        2_4   1   2    4


End of Intro/Verse
E:-----------------
B:-----------------
G:-2/6--6h7---6h7-- <---2on2&6
D:-2/7--7-----7---- <---3on2&7
A:-----------------
E:-----------------
        2_4   2_4


Alternate Verse
Dave just really noodles around w/ that Asus2 chord and some other stuff
E:-0--
B:-0--
G:-2--
D:-2--
A:-0--
E:----


"Find some inspiration..."
E:-3-----2-----------------3-----2-----0--
B:-0-----3-----2-----------0-----3-----0--
G:-0-----2-----2-----1-----0-----2-----2--
D:-0-----0-----2-----2-----0-----0-----2--
A:-2-----------0-----2-----2-----------0--
E:-3-----------------0-----3--------------


Jam
E:-1-----------
B:-1--------1--
G:-2--------2--
D;-3--------2--
A:-3--------0--
E:-1-----------