Studio Version:

Album: Some Devil

 

Trouble













Tuning: Standard

E-A-D-G-B-E


Difficulty: ***

Advanced


Additional Tabs:



Useful Videos:


Intro/Whole Song/Outro

Dave plays this for the whole song but when playing solo, play stuff below

E:----
B:----
G:-9--
D:-7--
A:----
E:----


Verse

Hit bass notes with a down stroke and the 7's and 9's on an upstroke

E:----------------------------------------------------------------
B:----------------------------------------------------------------
G:----9--9--9--9------9--9--9--9------9--9--9--9------9--9--9--9-- <---4
D:----7--7--7--7------7--7--7--7------7--7--7--7------7--7--7--7-- <---2
A:---------------------------------5------------------------------
E:-5---------------7-------------------------------5--------------
   1               1               1               1


"Trouble..."/"Pray oh mercy..."/etc

Hit bass notes with a down stroke and the 7's and 9's on an upstroke

E:--------------------------------------------------------------------
B:--------------------------------------------------------------------
G:----9--9------9--9------9--9--9--9------9--9--9--9------9--9--9--9-- <--4
D:----7--7------7--7------7--7--7--7------7--7--7--7------7--7--7--7-- <--2
A:---------------------5---------------5------------------------------
E:-5---------7-----------------------------------------5--------------
   1         1         1               1               1


"Oh sweet day..."

Leads into "Trouble" part

E:-------------3--------
B:-------------3-----3--
G:-------1-----0-----2--
D:-4-----2-----0-----0--
A:-4-----2-----2-----x--
E:-2-----0-----3-----2--


"Here I stand..."

Leads into "Trouble" part

E:-------------------2--         E:-------------3-----------1--------
B:-------------2-----3--         B:-------------3-----3-----2-----2--
G:-------1-----2-----2-- x2 then G:-------1-----0-----2-----3-----2--
D:-4-----2-----2-----0--         D:-4-----2-----0-----0-----0-----2--
A:-4-----2-----4--------         A:-4-----2-----2-----x-----------4--
E:-2-----0--------------         E:-2-----0-----3-----2--------------