Studio Version:

Album: Some Devil

 

Too High













Tuning: Standard

E-A-D-G-B-E


Difficulty: **

Intermediate


Additional Tabs:



Helpful Videos:


Intro

E:--------------------
B:--------------------
G:--------------------
D:-----5-------5-5-5--
A:--------------------
E:-3-------3----------
   1   4   1   4 4 4


Fill

Let bass notes ring and alternate pick the 5's

E:--------------------------
B:--------------------------
G:--------------------------
D:-----5--5-5-5------5-5-5--
A:--------------------------
E:-3--------------3---------
   1   4  4 4 4   1  4 4 4


Verse

Let bass notes ring and alternate pick the 5's

E:----------------------------------------------------
B:----------------------------------------------------
G:----------------------------------------------------
D:-----5--5-5-5------5-5-5-------5--5-5-5------5-5-5--
A:----------------------------------------------------
E:-6--------------6----------4--------------4---------
   3   2  2 2 2   3  2 2 2   1   2  2 2 2   1  2 2 2


E:----------------------------------------------------
B:----------------------------------------------------
G:----------------------------------------------------
D:-----5--5-5-5------5-5-5-------5--5-5-5------5-5-5--
A:----------------------------------------------------
E:-3--------------3----------4--------------4---------
   1   4  4 4 4   1  4 4 4   2   4  4 4 4   2  4 4 4


"All You Need..."

E:-0--------0---------2--
B:-1--------1---------3--
G:-2--------0---------2--
D:-2--------2----3----0--
A:-0--------3----3-------
E:---------------1-------


"Yeaaaaaaah..."

Played following "All You Need"

E:-(2)--
B:--3---
G:--2---
D:--x---
A:--3---
E:------


"...Slow Hand Quickens"

E:--------------------
B:--------------------
G:-0------------------
D:-2--------5------5--
A:-2-----3------5-----
E:-0------------------
         1  4   3  4
or

E:--------------------
B:----------1------2--
G:-0--------0------0--
D:-2--------2------4--
A:-2-----3------5-----
E:-0------------------
         3      3


Bridge

Let bass notes ring and alternate pick the 5's

E:----------------------------------------------------
B:----------------------------------------------------
G:----------------------------------------------------
D:-----5--5-5-5------5-5-5-------5--5-5-5------5-5-5--
A:----------------------------------------------------
E:-3--------------3----------1--------------1---------
   3   4  4 4 4   3  4 4 4   1   4  4 4 4   1  4 4 4


E:----------------------------------------------------
B:----------------------------------------------------
G:----------------------------------------------------
D:-----5--5-5-5------5-5-5-------5--5-5-5------5-5-5--
A:-3--------------3-----------------------------------
E:---------------------------5--------------5---------
   1   4  4 4 4   1  4 4 4   3   4  4 4 4   3  4 4 4


Lead into Outro

E:------------------------
B:------------------------
G:------------------------
D:------5--------6--8--7--
A:-5h6------5h6-----x--x--
E:------------------6--5--


Outro

Timing on this is tricky

E:--------------------------------
B:--------------------------------
G:--------------------------------
D:-5----3-----13----12----8----7--
A:-x----x-----x-----x-----x----x--
E:-3----1----/11----10----6----5--